Taurus III Tab

Visions of the past, when i had time, and faster fingers:

Taurus III
----------
by Mike Oldfield

tabbing :Chris Lukassen
special thanks to : Chris Conway

Arpeggio
1] 3]
|------------------|---6-7-9---7-6----|---6-7------------|------------------||
|-------------6-7--|-9----------------|-9-------7-9-6-7--|------------------||
|---------6-8------|------------------|-------8----------|---6--------------||
|---6-8-9----------|------------------|------------------|-9---9-8-9-8------||
|-9----------------|------------------|------------------|-------------9----||
|------------------|------------------|------------------|------------------||

2] 4]
|------------------|| |------------------|
|---------7--------|| |---------7--------|
|---6--------------|| |---6--------------|
|-9---9-8----------|| |-9---9-8----------|
|--------------6-8-|| |------------9-----|
|------------9-----|| |------------------|

Middle

|-9-6---7----------|------------------|-9-6---7----------|------------------||
|-----7---9-6-7----|------------------|-----7---9-6-7----|-7---9--11--------||
|---------------8--|---6--------------|---------------8--|-8--10--11--------||
|------------------|-9---9-8-9-6-8----|------------------|------------------||
|------------------|---------------9--|------------------|------------------||
|------------------|------------------|------------------|------------------||

Break

|-6----------------|--7---------------|-6----------------|------------------|
|------7-----------|-------7----------|------7----4------|-6-4---4--7-------|
|-6----------------|--7---------------|-6---------4------|-----6-4----------|
|------------------|-11---------------|------------------|------------------|
|------------------|------------------|------------------|------------------|
|------------------|------------------|------------------|------------------|

1]
|-6----------------|--7---------------|-6--------9-------|--7------9--------||
|------7-----------|-------7----------|------7-----------|------------------||
|-6----------------|--7---------------|-6-----------9----|-----7------------||
|------------------|-11---------------|------------------|------------------||
|------------------|------------------|------------------|------------------||
|------------------|------------------|------------------|------------------||

2]
|-6----------------|--7---------------|----6-------------|------------------|
|------7-----------|-------7----------|----------9-----7-|----7-------------|
|-6----------------|--7---------------|-6----------------|------------------|
|------------------|-11---------------|-------9-----8----|----8-------------|
|------------------|------------------|------------------|----9-------------|
|------------------|------------------|------------------|------------------|

High pitched notes
1] 2]
|----------16-18-16-------|----------16-|-18----------||-18----------||
|-16-18-19----------19-18-|-16-18-19----|-------------||-------------||
|-------------------------|-------------|-------------||-------------||
|-------------------------|-------------|-------------||-------------||
|-------------------------|-------------|-------------||-------------||
|-------------------------|-------------|-------------||-------------||
|-------------------------|-------------|-------------||-------------||

Advertisements
Tagged with: , ,
Posted in Music

Leave a Reply

Fill in your details below or click an icon to log in:

WordPress.com Logo

You are commenting using your WordPress.com account. Log Out / Change )

Twitter picture

You are commenting using your Twitter account. Log Out / Change )

Facebook photo

You are commenting using your Facebook account. Log Out / Change )

Google+ photo

You are commenting using your Google+ account. Log Out / Change )

Connecting to %s

Categories
%d bloggers like this: